sábado, 2 de setembro de 2017

Aprenda a tocar violão - Aula 1 - Conheça seu violão



Aula 1 - Curso básico de violão para iniciantes
Assunto: Conheça seu violão
Se inscreva no canal: Clique aqui para se inscrever no canal

Se você está querendo aprender a tocar violão, essa video aula irá te ajudar. Aqui você conhecerá todas as partes do violão, o que é essencial para qualquer tocador iniciante.

Qualquer dúvida você pode deixar aqui nos comentários ou no canal. Um abraço e bom estudo!




APRENDA TOCAR VIOLÃO EM POUCO TEMPO DE MANEIRA FÁCIL E DESCOMPLICADA DIRETO DE SUA CASA.



sábado, 5 de maio de 2012

Evelyn Glennie, uma história para refletir

Olá pessoal, venho trazer para vocês um super vídeo, da percussionista Evelyn Glennie contando todas as dificuldades que ela teve de enfrentar para entrar e continuar no mundo da música pelo fato dela ser surda, e mostrando também que a música não se escuta apenas pelos ouvidos, mas sim utilizando todo o corpo. Vale apena assistir.
É uma daquelas histórias que te faz refletir.
Obs: o vídeo é em Inglês, mas tem a opção de colocar legenda em português.

link do vídeo: http://www.ted.com/talks/lang/en/evelyn_glennie_shows_how_to_listen.html





APRENDA TOCAR VIOLÃO EM POUCO TEMPO DE MANEIRA FÁCIL E DESCOMPLICADA DIRETO DE SUA CASA.



quarta-feira, 2 de maio de 2012

Tablatura(guitarra) - Arrebatados

Cantor/Banda: Kleber lucas
Álbum: Pra valer a pena
Título: Arrebatados          


E--------------------------------------------------------------------------------
B-12b14-b14-b14-b14-b14-b14---10----10---------------------------
G------------------------------------------------11----11--------9----9b11-
D--------------------------------------------------------------/11---11-------
A--------------------------------------------------------------------------------
E--------------------------------------------------------------------------------

E---------------------------------------------------------
B----------14--------14----------14--------14--------
G----11--14--11---14---11---14---11--14--11--
D-11----------------------------------------------------
A----------------------------------------------------------
E----------------------------------------------------------

E-------------------------------------------------
B-10-12b14-----------------------------------
G--------------11-14-11-9---------9-10-11-
D------------------------------11-11------------
A-------------------------------------------------
E--------------------------------------------------

E----------------------------------------------------------
B-14-----14---------14-----------14---------14--------
G-14-11-14-11----14--11-----14--11----14---11-
D------------------11----------11----------11-----------
A----------------------------------------------------------
E-----------------------------------------------------------

E-------------------------------------------------------------------------------
B-------------------------------------------------------------------------------
G-------------------------------------6h7p6---6-7---6-7-7/9-7-9-9/11-
D-7-9-7-9-11-9-7--------7-9-11---------9------------------------------
A---------------------9-7-9---------------------------------------------------
E--------------------------------------------------------------------------------

E------------------------------------------------------------------------------
B-----------------------------------------------------------------------------
G-11-9-7-9-7----7--------------6-7-6-7-7/9b10r9---7-9-11-9-11-
D----------------11--11-9---7-9-------------------------------------------
A------------------------------------------------------------------------------
E------------------------------------------------------------------------------

E--------------------------9-----9-10-12b14-----
B-10-9-10-12-10-12---12-----------------------
G------------------------------------------------------
D------------------------------------------------------
A------------------------------------------------------
E------------------------------------------------------

/ : Slide
b : Bend
h : Hammer on
p : Pull off

b14 : segura o bend e palheta
12b14 : palheta uma vez e faz o bend duas vezes


APRENDA TOCAR VIOLÃO EM POUCO TEMPO DE MANEIRA FÁCIL E DESCOMPLICADA DIRETO DE SUA CASA.


Kleber Lucas

Álbum: Pra valer a pena




APRENDA TOCAR VIOLÃO EM POUCO TEMPO DE MANEIRA FÁCIL E DESCOMPLICADA DIRETO DE SUA CASA.





Cifra - Tua graça me basta


Cantor/Banda: Toque no altar
Álbum: Olha pra mim
Título: Tua graça me basta

Introdução: C#m B A B C#m  C#m B A B E

E                                                A9
Eu não preciso ser reconhecido por ninguém
E                                                A9
A minha glória é fazer com que conheçam a Ti
C#m    B        A9              E  F#m            B
E que diminua eu pra que tu cresças Senhor mais e mais

E                                                A9
E como os serafins que cobrem o rosto ante a Ti
E                                                A9
Escondo o rosto pra que vejam tua face em mim
C#m    B      A9                          E    F#M                 B
E que diminua eu pra que Tu cresças Senhor mais e mais

E              A9                     E     F#m
No santo dos santos a fumaça me esconde
                             C#m
Só teus olhos me vêem
B                 A9                 E   F#m
Debaixo de tuas asas é meu abrigo
                    C#m
Meu lugar secreto
B           A9                     B                         E                        Final: E A9 E A9
Só tua graça me basta e tua presença é meu prazer


1º vez (Eu não preciso...). E A9 E A9

2º vez solo: E A9 E F#m C#m B A E F#m
                    B C#m G#m A E F#m B 2X




APRENDA TOCAR VIOLÃO EM POUCO TEMPO DE MANEIRA FÁCIL E DESCOMPLICADA DIRETO DE SUA CASA.



terça-feira, 1 de maio de 2012

Tablatura (guitarra) - Além do rio azul

Cantor/Banda: Voz da verdade
Álbum: 30 anos
Título: Além do rio azul


 introdução
E-----------------------------------------------------------------------------------------------------
B-----------------------------------------------------------------------------------------------------
G------------------11-------------------------------------------------------------------------------
D-11-14-11-14------------------12-11----11---------------------11----------14/16-14--
A----------------------------12-14----------------14-12--14-----------14-12-----------------
E------------------------------------------------------------------12-------------------------------



APRENDA TOCAR VIOLÃO EM POUCO TEMPO DE MANEIRA FÁCIL E DESCOMPLICADA DIRETO DE SUA CASA.



Ministério Ipiranga




APRENDA TOCAR VIOLÃO EM POUCO TEMPO DE MANEIRA FÁCIL E DESCOMPLICADA DIRETO DE SUA CASA.