sexta-feira, 27 de abril de 2012

Tablatura(Violão) - Projeto no deserto

 Cantor/Banda: Voz da verdade
Álbum: Projeto no deserto
Título: Projeto no deserto

 solo de violão 04:11 (tempo na música)

E-------------------------------------------
B-----2-4-4/5-5-4-2--------------------
G-2----------------------------------------
D------------------------5-2-3-5----------
A-----------------------------------3/5----
E--------------------------------------------

E----5-7-7/8-8-7-------------8-10-10/12-12-12-13-10------
B-5-----------------8/10---8-----------------------------------------
G-----------------------------------------------------------------------
D-----------------------------------------------------------------------
A-----------------------------------------------------------------------
E-----------------------------------------------------------------------

E-5-8------------------------------------------------------------
B------5-8-------------8/10--10-10--10/8--8---5-5------
G----------5-7--5-----7/9-----9---9---9/7---7---5-5--4---
D---------------7-------------------------------------------5----
A------------------------------------------------------------------
E------------------------------------------------------------------

E------------------------------------------
B------------------------------------------
G------------------------------------------
D---------5---7-7-5-------5-7-7-5-5--
A--5h7----7---------5h7---------------
E------------------------------------------

h : Hammer on
/ : Slide


APRENDA TOCAR VIOLÃO EM POUCO TEMPO DE MANEIRA FÁCIL E DESCOMPLICADA DIRETO DE SUA CASA.




Nenhum comentário:

Postar um comentário