segunda-feira, 30 de abril de 2012

Tablatura (guitarra) - Deus da força

Cantor/Banda: Thalles roberto
Álbum: Na sala do pai
Título: Deus da força


Introdução

E--------------------------------------------------------------------------
B-------------------------------------------------------------------------
G------------------------------------------------------------------------
D------------------------------------------------------------5-7--------
A-----------5-5---5------------------5-5----5---7-7--7-----5-5---
E-5-5-5-8-----8----8--5-5----5-8------8---8----------------------

E-------------------------------
B------------------------------
G------------------------------
D------------------------------
A---5---5---5---5------------
E-8---8---8---8---8--5-5---


1:45 (tempo na música)
E--------------------
B--------------------
G--------------------
D--------------------
A---------5-4-3-----
E-5-4-3-------------

Este riff é tocado com palm mute (técnica de abafar as cordas com a mão direita)


DESENVOLVA SUA TÉCNICA DE GUITARRA COM UM MÉTODO EFICIENTE
SEM ENROLAÇÃO OU PERDA DE TEMPO



Nenhum comentário:

Postar um comentário