quarta-feira, 25 de abril de 2012

Tablatura - Na corte do egito

Cantor/Banda: Fernanda Brum
Álbum: Profetizando as nações
Título: Na corte do egito

02:54 (hora do solo na música)

E----------7--7--7--7--7--7-------------------------------------------------------------------------
B----------7--7--7--7--7--7--------------------------------------------------------------------------
G--9b11----------------------9b11--7--7------------------------7--7---------7b9(ha)----------
D------------------------------------------9---9--9(ha)-------7----------9-7------------------------
A-----------------------------------------------------------7--9--9-------------------------------------
E -------------------------------------------------------------------------------------------------------

E---------------------------------------------------------------------------------------------------------17----------
B--------------------------------------------------------------------------12--14--15--17--17b19---17b19--
G--------------------------------------7/9--11t14--11t16--11/16----------------------------------------------
D--9--7---------------------------------------------------------------------------------------------------------------
A--------9--8--7----------7------------------------------------------------------------------------------------------
E-----------------10--10---10---------------------------------------------------------------------------------------

E-------------------------------------------------------------
B-19b20r19-15----------------------------19-20-22--
G---------------------------------17-19-21----------------
D-------------------17-19-21------------------------------
A--------------------------------------------------------------
E--------------------------------------------------------------

/ =  Slide
b = Bend
r = Reverse Bend
t = Tapping
ha = Harmônico artificial 
O que está em azul, é para repetir várias vezes, conforme está na musica.
19b20r19 > dá apenas uma palhetada, faz o bend e o reverse bend.

Nenhum comentário:

Postar um comentário