terça-feira, 24 de abril de 2012

Tablatura(Guitarra) - Projeto no deserto

Cantor/Banda: Voz da verdade
Álbum: Projeto no deserto
Título: Projeto no deserto

Solo de guitarra
Introdução  (depois do solo de violão) - 00:49  (hora do solo na música)


E---------------------------------------------------------------------------------------------------------
B-------------------10--12--10-------------------------------------------------------------------------
G-9--12--12b14---------------12b14--14r12--10--9--------------------------------------------
D---------------------------------------------------------------12----------------------------------------
A----------------------------------------------------------------------------------------------------------
E----------------------------------------------------------------------------------------------------------

E---------------------------------------------------------------------------15----15b17------------------
B------------------------------13b15-15r13-13-12---------15b17---15---------------------------
G----14-16-16b17-14-16--------------------------14-12-------------------------------------------
D-14-------------------------------------------------------------------------------------------------------
A-----------------------------------------------------------------------------------------------------------
E-----------------------------------------------------------------------------------------------------------

2º solo - 02:20  (hora do solo na música)

E-------------------------------------------------------------------------------------15------------15b17-15b17
B---------12-10-12----------------12-13-15-15b17-13-------------12-13---15b17-15---------------
G-12b14-----------12-9-------14---------------------------14---14-----------------------------------------
D---------------------------12-------------------------------------------------------------------------------------
A-------------------------------------------------------------------------------------------------------------------
E-------------------------------------------------------------------------------------------------------------------


r = Reverse bend
b = bend

Nenhum comentário:

Postar um comentário