terça-feira, 1 de maio de 2012

Tablatura (guitarra) - Ressuscita - Com Video-aula




Cantor/Banda: Ministério Ipiranga
Álbum: (caso alguém saiba, colabore.)
Título: Ressuscita 

Introdução
E-----------------------------------------------------------------------------------
B----------------------------------------------------------------8----------------
G---7------7-9-9b11-11r9-7-9-9ha--------7-9-9b11----9b11-9-----
D-7---9-9-------------------------------------7--------------------------------
A-----------------------------------------------------------------------------------
E-----------------------------------------------------------------------------------

E-------------------7--------9--------10------------
B-------10--------------------------------------------
G-7-9------9b11---b11------b11-----11---------
D--------------------------------------------------------
A-------------------------------------------------------
E-------------------------------------------------------

E--------------------------15---------------------------17---------------------------
B-----15-17--17b19------17b19-17-----15-17----17b19--19r17-15----
G-14-------------------------------------------------------------------------------16-
D---------------------------------------------------------------------------------------
A---------------------------------------------------------------------------------------
E---------------------------------------------------------------------------------------

E-----------------------15-------------------------------
B----15-17-17b19------17b19-17---15-15/17-
G-14-----------------------------------------------------
D---------------------------------------------------------
A----------------------------------------------------------
E----------------------------------------------------------

b : Bend
r : Reverse Bend
ha :  Harmônico artificial
/ : Slide 
b11 : segura o bend e toca normal

DESENVOLVA SUA TÉCNICA DE GUITARRA COM UM MÉTODO EFICIENTE

SEM ENROLAÇÃO OU PERDA DE TEMPO


Nenhum comentário:

Postar um comentário