quarta-feira, 2 de maio de 2012

Tablatura(guitarra) - Arrebatados

Cantor/Banda: Kleber lucas
Álbum: Pra valer a pena
Título: Arrebatados          


E--------------------------------------------------------------------------------
B-12b14-b14-b14-b14-b14-b14---10----10---------------------------
G------------------------------------------------11----11--------9----9b11-
D--------------------------------------------------------------/11---11-------
A--------------------------------------------------------------------------------
E--------------------------------------------------------------------------------

E---------------------------------------------------------
B----------14--------14----------14--------14--------
G----11--14--11---14---11---14---11--14--11--
D-11----------------------------------------------------
A----------------------------------------------------------
E----------------------------------------------------------

E-------------------------------------------------
B-10-12b14-----------------------------------
G--------------11-14-11-9---------9-10-11-
D------------------------------11-11------------
A-------------------------------------------------
E--------------------------------------------------

E----------------------------------------------------------
B-14-----14---------14-----------14---------14--------
G-14-11-14-11----14--11-----14--11----14---11-
D------------------11----------11----------11-----------
A----------------------------------------------------------
E-----------------------------------------------------------

E-------------------------------------------------------------------------------
B-------------------------------------------------------------------------------
G-------------------------------------6h7p6---6-7---6-7-7/9-7-9-9/11-
D-7-9-7-9-11-9-7--------7-9-11---------9------------------------------
A---------------------9-7-9---------------------------------------------------
E--------------------------------------------------------------------------------

E------------------------------------------------------------------------------
B-----------------------------------------------------------------------------
G-11-9-7-9-7----7--------------6-7-6-7-7/9b10r9---7-9-11-9-11-
D----------------11--11-9---7-9-------------------------------------------
A------------------------------------------------------------------------------
E------------------------------------------------------------------------------

E--------------------------9-----9-10-12b14-----
B-10-9-10-12-10-12---12-----------------------
G------------------------------------------------------
D------------------------------------------------------
A------------------------------------------------------
E------------------------------------------------------

/ : Slide
b : Bend
h : Hammer on
p : Pull off

b14 : segura o bend e palheta
12b14 : palheta uma vez e faz o bend duas vezes


APRENDA TOCAR VIOLÃO EM POUCO TEMPO DE MANEIRA FÁCIL E DESCOMPLICADA DIRETO DE SUA CASA.


Nenhum comentário:

Postar um comentário